Guitar Tablature

       Diatonic scale on C, guitar tablature
       
	 File: 82  Score: 5  against: +My +Little Secret Tab - Caliban Guitar Chords
       
  My Little Secret Tab - Caliban

"My Little Secret"
"Caliban"
"39380751";

     
"My Little Secret"
"My Little Secret"
 Caliban - My Little Secret Guitar Tab
    My Little Secret Tab
    
       
    From Opposite from within, (track nš8)
Please make a comment with the 2cond guitar chorus if you figure it
out!

Intro:
Guitar 1
d||------------------------------------------------||
a||------------------------------------------------||
f||------------------------------------------------||
c||---7-7-7-72-2-2-2/6-6-6-63-3-3-3/-------------||x4
g||---x-x-x-xx-x-x-x/x-x-x-xx-x-x-x/-------------||
C||---5-5-5-5-0-0-0/4-4-4-41-1-1-1/-------------||
Guitar 1
d||------------------------------------------------||
a||------------------------------------------------||
f||------------------------------------------------||
c||---7-7-7-72-2-2-2/6-6-6-63-3-3-3/-------------||x6(Here the rythm 
g||---x-x-x-xx-x-x-x/x-x-x-xx-x-x-x/-------------||     changes)
C||---5-5-5-5-0-0-0/4-4-4-41-1-1-1/-------------||
Guitar 2
d||----------------------------------------------------||
a||----------------------------------------------------||
f||----------------------------------------------------||
c||----------------------------------------------------||
g||---0000-0000000000--x7-then--0000-000000-7h81088p7--||
C||---0000-0000000000-----------0000-000000-7h81088p7--||
      .... ..........           .... ......
Verse:
d||------------------------------------------------||
a||------------------------------------------------||
f||--------------------------------9---8-----------||
c||--------------------------------8---7-----------||
g||---0000000000007h8-000000000000-7-0-6-----------||
C||---0000000000007h8-000000000000---0-------------||
      (Maybe here little palm muting)                 x2
d||------------------------------------------------||
a||------------------------------------------------||
f||------------------------------------------------||
c||------------------------------------------------||
g||---0000000000007h8-000000000000-303-------------||
C||---0000000000007h8-000000000000-303-------------||
      (Maybe here little palm muting)
d||------------------------------------------------||
a||------------------------------------------------||
f||--------------------------------9---8-----------||
c||--------------------------------8---7-----------||
g||---0000000000007h8-000000000000-7-0-6-----------||
C||---0000000000007h8-000000000000---0-------------||
      ............    ............   .                x2
d||------------------------------------------------||
a||------------------------------------------------||
f||------------------------------------------------||
c||------------------------------------------------||
g||---0000000000007h8-000000000000-303-------------||
C||---0000000000007h8-000000000000-303-------------||
      ............    ............ ...  

d||----------------------------------------------------||
a||----------------------------------------------------||
f||----------------------------------------------------||
c||----------------------------------------------------||
g||---0000-0000000000--x7-then--0000-000000-7h81088p7--||
C||---0000-0000000000-----------0000-000000-7h81088p7--||
      .... ..........           .... ......
Guitar2:
when guitar does the last two times the rythm
d||------------------------------------------------||
a||------------------------------------------------||
f||------------------------------------------------||
c||----7~2---2---6~3~--3-------------------------||x1
g||----x~x~------x~x~----------------------------||
C||----5~~-0-0--4~1~-1-1------------------------||

d||----------------------------------------------------||
a||----------------------------------------------------||
f||--------------------------------9---8---------------||
c||--------------------------------8---7---------------||
g||---0000000000007h8-000000000000-7-0-6---------------||
C||---0000000000007h8-000000000000---0-----------------||
      (Maybe here little palm muting)                       x2
d||--------------------------------|-----|-------------||
a||--------------------------------|-----|-------------||
f||--------------------------------|-----|-------------||
c||--------------------------------|-----|-------------||
g||---0000000000007h8-000000000000-|-303-|-3-0-3~-0-1~-||
C||---0000000000007h8-000000000000-|-303-|-3-0-3~-0-1~-||
      (Maybe here little palm muting)

Chorus:
Guitar1
d||------------------------------------------------||
a||------------------------------------------------||
f||------------------------------------------------||
c||---00000000000088883333333333331111-------------||
g||---00000000000088883333333333331111-------------||
C||---00000000000088883333333333331111-------------||
Guitar2                                                x4
d||------------------------------------------------||
a||------------------------------------------------||
f||------------------------------------------------||
c||------canīt figure it!--------------------------||
g||------------------------------------------------||
C||------------------------------------------------||

Bridge:                                (Guitar last 7 times)
d||----------||  d||----------------|| d||-------------||
a||----------||  a||----------------|| a||-------------||
f||----------||  f||----------------|| f||-------------||
c||--0~------||  c||----------------|| c||-------------||
g||--0~------||  g||------------x24-|| g||-------------||
C||--0~------||  c||--01014101------|| c||--0--12||---||
                                            .   .
d||--------------------||
a||--------------------||
f||--------------------||
c||--------------------||
g||--7h81088p7---------||
C||--7h81088p7---------||

Back To Verse:
d||----------------------------------------------------||
a||----------------------------------------------------||
f||--------------------------------9---8---------------||
c||--------------------------------8---7---------------||
g||---0000000000007h8-000000000000-7-0-6---------------||
C||---0000000000007h8-000000000000---0-----------------||
      (Maybe here little palm muting)                       x2
d||--------------------------------|-----|-------------||
a||--------------------------------|-----|-------------||
f||--------------------------------|-----|-------------||
c||--------------------------------|-----|-------------||
g||---0000000000007h8-000000000000-|-303-|-3-0-3~-0-1~-||
C||---0000000000007h8-000000000000-|-303-|-3-0-3~-0-1~-||
      (Maybe here little palm muting)

Last Chorus:
Guitar 1
d||------------------------------------------------||
a||------------------------------------------------||
f||------------------------------------------------||
c||---00000000000088883333333333331111-------------||
g||---00000000000088883333333333331111-------------||
C||---00000000000088883333333333331111-------------||
Guitar 2:                                             x4
d||------------------------------------------------||
a||------------------------------------------------||
f||------------------------------------------------||
c||---------canīt figure it!-----------------------||
g||------------------------------------------------||
C||------------------------------------------------||

Outro:
d||------------------------------------------------||
a||------------------------------------------------||
f||------------------------------------------------||
c||------------------------------------------------||
g||---0000-0000000000--x4--------------------------||
C||---0000-0000000000------------------------------||
      .... ..........           

  /  slide up
    slide down
  h  hammer-on
  p  pull-off
  ~  vibrato
  x  Mute note 
  .. Palm mutes
    
        

      
"My Little Secret"
"My Little Secret"
"Caliban" "My Little Secret" "39380752"
      
     
     Caliban - My Little Secret TabMy Little Secret      People who
played Caliban - My Little Secret Tab also played these songs by 
      Caliban:
      Nothing Is Forever Tab, My Time Has Come Tab, The Revenge Tab,
Beloved And The Hatred Tab, Stigmata Tab, Goodbye Tab, Skit1 Tab, I
Rape Myself Tab, Entrance Tab, Stand Up Tab  
  
  
  
   
   
     
    About the artist behind My Little Secret Tab:   
    
     Caliban are a five-piece metalcore band from Germany. They have
released six studio albums to-date. Although the band's sound is
"metalcore", the band has stated that they have come from a hardcore
scene and are a hardcore band.Indexed at Wikipedia.      
My Little Secret Tab!
     
My Little Secret Tab, 


   Current rating: 2.9
   
   Rate: 
   1 
   2 
   3 
   4 
   5
  
  
  
    
    
  
  
 
 
     
      
     
     
 
 
  
  
   The chord pattern is shown here.   
  
  
  
 
 
 
 


  

 


 c4: "http://www.yourchords.com/95315/Caliban/My-Little-Secret-Tab/"
Midi Mime Types SiteMap Contact Subscribe © 2014 JimmyLandStudios