Evidence Chords - Faith No More

"Evidence"
"Faith No More"
"39380751";

     
"Evidence"
"Evidence"
 Faith No More - Evidence Guitar Tab
    Evidence Chords
    
       
    Artist: Faith No More
Song:Evidence
Album:King for a Day, Fool for a Lifetime (1995)

Standard Tuning (E,A,D,G,B,D)

Am                Am/G             Am/F#          Am/F           Em
-0------------    ----------       -----------    -----------   
----------
-1-----------     -1--------       -1---------    -1---------   
----------
-2-----------     -2--------       -2---------    -2---------   
----------
-2-----------     -2--------       -2---------    -2---------   
-2--------
-0------------    ----------       -----------    -----------   
-2--------
-0------------    -3--------       -2---------    -1---------   
-0--------

Am                G            Dsus2/A          F 
-0---------       -3---------     -0---------      -1---------
-1---------       -3---------     -3---------      -1---------
-2---------       -0---------     -2---------      -2---------
-2---------       -0---------     -0---------      -3---------
-0---------       -2---------     -0---------      -3---------
-0---------       -3---------     -2---------      -----------

Intro
Am   Am/G  Am/F#  Am/F     Em9

Verse 1              
Am   Am/G  Am/F#  Am/F     Em9
If you want to open your hole
Just put your head down and go
Step beside the piece of the circumstance
Got to wash away the taste of evidence
Wash it away

Bridge 
Am   Am/G  Am/F#  Am/F     Em9
Evidence 3x
got a taste..... of evidence

Chorus
Am  G   Dsus2/A   F 
I didn't feel a thing
It didn't mean a thing
Look in the eye and testify
I didn't feel a thing

Verse 2
Am   Am/G  Am/F#  Am/F     Em9
Anything you say, we know you're guilty
Hands above your head,
and you won't even feel me
You won't feel me

Chorus 
Am  G   Dsus2/A   F 
I didn't feel a thing
It didn't mean a thing
Look in the eye and testify
I didn't feel a thing

~Solo~

Bridge
Am  G   Dsus2/A   F 
evidence X3
got a taste..... of evidence

Chorus
Am  G   Dsus2/A   F 
I didn't feel a thing
You didn't mean a thing
Look in the eye and testify
I didn't feel a thing x2

~End~

    
        

      
"Evidence"
"Evidence"
"Faith No More" "Evidence" "39380752"
      
     
     Faith No More - Evidence ChordsEvidence      People who played
Faith No More - Evidence Chords also played these songs by 
      Faith No More:
      Easy Chords, Just A Man Tab, Evidence Tab, Helpless Tab, Cowboy
Song Chords, From Out Of Nowhere Tab, Digging The Grave Chords, Epic
Tab  
  
  
  
   
   
     
    About the artist behind Evidence Chords:   
    
     Faith No More was an American rock band that formed in San
Francisco, California in 1982.[1], and disbanded in 1998. Faith No
More combined elements of heavy metal, funk, hardcore punk,
progressive, hip hop, and jazz, among many others, [2] [3] and have
been hailed as an influential rock band.[4] [5]Indexed at Wikipedia.  
   
Evidence Evidence Chords, 


   Current rating: 0
   
   Rate: 
   1 
   2 
   3 
   4 
   5
  
  
  
    
  
  
  
   

   

  
  
    
    
  
  
 
 
     
      
     
     
 
 
  
  
   The chord pattern is shown here.   
  
  
  
 
 
 
 


  

 


 c4: "http://www.yourchords.com/274360/Faith-No-More/Evidence-Chords/"
Midi Mime Types SiteMap Contact Subscribe © 2014 JimmyLandStudios