The Amen Corner Tab - Opeth

"The Amen Corner"
"Opeth"
"39380751";

     
"The Amen Corner"
"The Amen Corner"
 Opeth - The Amen Corner Guitar Tab
    The Amen Corner Tab
    
       
    OPETH - THE AMEN CORNER
                        From the Album MAYH
                    Copyright 1997 Candlelight  RECORDS
Transcribed by: LOUIS RIEL

For Questions, Comments, Newest Version, or Corrections contact
       Louis Riel at: riel2102@aei.net

  - pam mute                     /  - slide up to
  - slide down to                ~  - vibrato
h  - hammer on                    b  - bend
p  - pull off                          Suffixes for bend
ph - pinch harmonic                     f - full bend    h - half bend
*  - see comment                        r - release      t - tap bend
X  - percussion note                    ~ - vibrato bend
@  - slight palm mute             ()  - ghost note, sustained note
"  - tremolo pick until next note
Opeth - AMEN CORNER

missing in this version : acoustic background riff
                        : solo notes in the second part of the main
solo

they will be fix in the next version
Tune to E (E,A,D,G,B,E)

              x4
|----------------|-------------------------------------------------------------------------------------|
|----------------|-------------------------------------------------------------------------------------|
|----------------|-------------------------------------------------------------------------------------|
|--9--8----------|--9-9-8-8-8---------8-8--------------------------------------------------------------|
|--7--7----------|--7-7-7-7-7---------7-7--------------------------------------------------------------|
|--0--6--/7-6-3--|--0-0-6-6-6--/7-6-3-6-6--------------------------------------------------------------|
|
|
|----------------|-------------------------------------------------------------------------------------|
|----------------|-------------------------------------------------------------------------------------|
|----------------|-------------------------------------------------------------------------------------|
|--9--8----------|--9-9-8-8-8---------8-8--------------------------------------------------------------|
|--7--7--/5-4-1--|--7-7-7-7-7--/5-4-1-7-7--------------------------------------------------------------|
|--0--6----------|--0-0-6-6-6---------6-6--------------------------------------------------------------|

                          X4
|---------------------------|--------------------------|-------------------|---------------------------|
|---------------------------|-----------------5--------|-------------------|---------------------------|
|---------------------------|------------2-h3---3--2-4-|-------------------|---------------------------|
|--2------------------------|--2--6--5-----------------|-----6-5----9------|-2-------------------------|
|--2------------------------|--2--6--5-----------------|-------------------|-2-------------------------|
|--0------------------------|--0--4--3-----------------|-0--------7-----1--|-0-------------------------|
|                           |                          |              
    |
|                           |                          |              
    |
|---------------------------|--------------------------|-------------------|---------------------------|
|-----------------5---------|-----------------5--------|-------------------|---------------------------|
|------------2-h3---3--2-4--|------------2-h3---3--2-4-|-------------------|---------------------------|
|--2--6--5------------------|--2--6--5-----------------|-------------------|-2-------------------------|
|--2--6--5------------------|--2--6--5-----------------|--------7----8-----|-2-------------------------|
|--0--4--3------------------|--0--4--3-----------------|--3--0-----0----4--|-0-------------------------|


|----------------------|----------------|----------------------|----------------------------------------|
|----------------------|----------------|----------------------|----------------------------------------|
|----------------------|----------------|----------------------|----------------------------------------|
|----------------------|----------------|----------------------|----------------------------------------|
|----------------------|-----------6-7--|-5-/7--7-7-7--5--5--5-|-----------6-7--------------------------|
|----------------------|-0--4-5-8-------|-0-(0)-0-0-0--3--3--3-|-0--4-5-8-------------------------------|
|                      |                |                      |      
                                 |
|                      |                |                      |      
                                 |
|----------------------|----------------|----------------------|----------------------------------------|
|----------------------|----------------|----------------------|----------------------------------------|
|----------------------|----------------|----------------------|----------------------------------------|
|----------------------|----------------|----------------------|----------------------------------------|
|-5-/7--7-7-7--6--5--3-|-/7--6---0------|-5-/7--7-7-7--6--5--3-|-/7--6----6--7--------------------------|
|-0-(0)-0-0-0--3--3--3-|-------8---7-7--|-0-(0)-0-0-0--3--3--3-|-------8-8------------------------------|
             x2                                         2 first time
|-------------|---------------------------------|---------------------|---------------------------------|
|-------------|---------------------------------|---------------------|---------------------------------|
|-------------|---------------------------------|---------------------|---------------------------------|
|-8-8-8-8-8-8-|-3-3-3-3----------------8/98-2--|--14-17-16--14-14-13-|-2-2-2-2-2-2-2-------------------|
|-------------|-----------7-7-7-7-7-7-----------|---------------------|-2
2-2-2-2-2-2-------------------|
|-6-6-6-6-6-6-|-1-1-1-1---0-0-0-0-0-0--6/76-0--|--12-15-14--12-12-11-|-0-0-0-0-0-0-0-------------------|
|             |                                                      
|               *               * |
|-------------|---------------------------------|---------------------|---------------------------------|
|-------------|---------------------------------|---------------------|---------------------------------|
|-6-6-6-6-7-6-|-6-6-6-6-------------------------|-14/16-15--11/12-11--|-14/16-15--11/12-11--------------|
|-------------|-----------5-5-5-5-5-5--8--5--2--|---------------------|---------------------------------|
|-4-4-4-4-54-|-4-4-4-4-------------------------|-12/14-13--9-/10-9---|-12/14-13--9-/10-9---------------|
|-------------|-----------3-3-3-3-3-3--6--3--0--|---------------------|---------------------------------|
 * = the last time variation with --
                                  --
                                  12
                                  --
                                  10
                                  --

|-0-0-0-0-0---------------------------------------------|-------------------------------|
|-0-0-0-0-0--------------0------------------------------|-------------------------------|
|-2-2-2-2-2----------0-----0--------------------2-2-2-2-|-------------------------------|
|-2-2-2-2-2------4-----4-----4--0--4-4-4-4-4-4--2-2-2-2-|-----------------9-7-------4-4-|
|-0-0-0-0-0----2---2---------------4-4-4-5-5-5--0-0-0-0-|/9-7-7---------9-----------4-4-|
|------------0------------------------------------------|-------7--7/10-------10-9--2-2-|
|
|
|-------------------------------------------------------|-------------------------------|
|-------------------------------------------------------|-------------------------------|
|-9-9-7-9--11----------------------11-11/12--6/7-6---7--|-------------------------------|
|-------------------------------------------------------|--2--4-5--9--7--4-4------------|
|-7-7-5-7--9-----------------------9--9-/10--4/5-4---5--|--2--2-2--7--4--4-4------------|
|-------------------------------------------------------|--0--2-3--7--5--2-2------------|

|--------------------------|------------------------------------------------------------|
|--------------------------|------------------------------------------------------------|
|--------------------------|------------------------------------------------------------|
|-2-4-5-7-4--------2-4-----|--2--4-5--9--7--4-4-----------------------------------------|
|-2-4-5-7-4--0-1-2-----2---|--2--2-2--7--4--4-4-----------------------------------------|
|-0-2-3-5-2--------------3-|--0--2-3--7--5--2-2-----------------------------------------|
                                                  
|------------------------------------|
                                                  
|------------------------------------|
                                                  
|------------------------------------|
main solo                                         
|-----------9-9-9-9-9----------------|
                                                  
|-----------7-7-7-7-7----------------|
                                                  
|----------------------0-10-9-0-10-9-|
                                                   |                  
                 |
|--------------------------------------------------|------------------------------------|
|--------6-6-6-----1--1-1--4-4-4--8-8-8-8--6-6-6-6-|------------------------------------|
|-5-5-5--7-7-7-----1--1-1--5-5-5--9-9-9-10-7-7-7-7-|------------------------------------|
|-7-7-7--7-7-7---2-3--3-3--5-5-5--9-9-9-9--7-7-7-7-|-9-9-9-9-9-4-4-4-4-4----3/4----3/4--|
|-7-7-7--5-5-5---2-3--3-3--3-3-3--7-7-7-7--5-5-5-5-|-9-9-9-9-9-1-1-1-1-1----------------|
|-5-5-5----------0-1--1-1--------------------------|-7-7-7-7-7-2-2-2-2-2--0-1/2--0-1/2--|
|--------------------------------|
|--------------------------------|
|---------0---------3-3-3-3------|
|-2-2-1h2-----1h2-2-3-3-3-3------|
|-2-2---------------1-1-1-1------|
|-0-0-------0--------------------|
|                                |
|                                |
|--------------------------------|
|--------------------------------|
|-----------3--------------------|
|-2-2-7/8-5---8----3/4---3/4-----|
|-2-2----------------------------|
|-0-0-5/6-3---6--0-1/2-0-1/2-----|

|------------------------------------------------|------------------------------------------------------|
|------------------------------------------------|------------------------------------------------------|
|------0-------------3------3---------3----------|------------------------------------------------------|
|--1h2------1h2-2------2---------2------2--------|------------------------------------------------------|
|-----------------1------0---------0------0------|------------------------------------------------------|
|-0-------0--------------------------------------|------------------------------------------------------|

|---------------------------------------|------------------------------------|--------------------------|
|---------------------------------------|------------------------------------|--------------------------|
|----------------------------6/7-7-7-7--|------------------------------------|--------------------------|
|-4-5---4-----4-5---4--------8/9-9-9-9--|------------------------------------|--------------------------|
|-----7---5-7-----7---5-7...------------|------------------------------------|--------------------------|
|---------------------------------------|------------------------------------|--------------------------|
|                                       |                             
      |
|                                       |                             
      |
|---------------------------------------|------------------------------------|--------------------------|
|---------------------------------------|------------------------------------|--------------------------|
|-----------9-9-9-9---------------------|------------------------------------|-------4-4----------------|
|--2-2-2-2--9-9-9-9-----------8-9-9-9-9-|---4-4-4-4-4-4-7-7-7-7-7--2-2-2-2-2-|--2-2--5-5----------------|
|--2-2-2-2--7-7-7-7--9-9-9-9--8-9-9-9-9-|---5-5-5-5-5-5-5-5-5-5-5--3-3-3-3-3-|--3-3--7-7-5--------------|
|--0-0-0-0-----------10101010-6/7-7-7-7-|---7-7-7-7-7-7------------5-5-5-5-5-|--5-5--------7------------|

|---------------------------0-----0-----0-----|----0------0------0--|-----------------------------------|
|--0---------------------0----6-----6-----6---|--6------6------6----|-----------------------------------|
|----5-------------4-----4------7-----7-----7-|------7------7------7|-----------------------------------|
|------7--------7------7----------------------|---------------------|-----------------------------------|
|--------7---7--------------------------------|---------------------|-----------------------------------|
|----------0----------------------------------|---------------------|-----------------------------------|

main solo
|------------------------------7b7----7------------------------------------------------------8----------|
|----------------------------------10------10----------------------------------------------------10---10|
|------------/9-7----7-9-9--10----------9------9-75----------------------------/7-10-9--7-9---9----9---|
|9-9/10-7-10------9-----------------------------------9--7-9-10-7-9---7-9-10-7--------------------------|
|-------------------------------------------------------------------------------------------------------|
|-------------------------------------------------------------------------------------------------------|

|-7-------------------7b--7-----------------------------------------------------------------------------|
|---9----9----------9-------9----9----------------------------------------------------------------------|
|-----10---10--7-10-----------10---10--7-10-------------------------------------------------------------|
|-------------------------------------------------------------------------------------------------------|
|-------------------------------------------------------------------------------------------------------|
|-------------------------------------------------------------------------------------------------------|
second part

|--------10------10-----10-13-10------------------------------------------------------------------------|
|-9b-10-----14b-----14b----------14b-10--------------8b-8----8b-8---------------------------------------|
|----------------------------------------12-10*****-------10------10-9----------------------------------|
|-------------------------------------------------------------------------------------------------------|
|-------------------------------------------------------------------------------------------------------|
|-------------------------------------------------------------------------------------------------------|
*** i will find  this for the next version !!

|----------12------------------------------10-----------------------------------------------------------|
|---8---12----12--10-13-10--------------10-----10-9-10--------------------------------------------------|
|-9------------------------10-9-10-7-10-----------------------------------------------------------------|
|-------------------------------------------------------------------------------------------------------|
|-------------------------------------------------------------------------------------------------------|
|-------------------------------------------------------------------------------------------------------|
|-------------------------------------------------------------------------------------------------------|
|-------------------------------------------------------------------------------------------------------|
|-------------------------------------------12----------------------------------------------------------|
|-10-10-12-14-14-14-12-10-12-12-12-13-12-13----13-12-10-9-10-9-7-5-7-5-2--------------------------------|
|-12-12-14-15-15-15-14-12-14-14-14-15-14-15-------------------------------------------------------------|
|-------------------------------------------------------------------------------------------------------|
    
        

      
"The Amen Corner"
"The Amen Corner"
"Opeth" "The Amen Corner" "39380752"
      
     
     Opeth - The Amen Corner TabThe Amen Corner      People who played
Opeth - The Amen Corner Tab also played these songs by 
      Opeth:
      Coil Tab, Soldier Of Fortune Chords, Harvest Chords, Ending
Credits Chords, Den Standiga Resan Chords, Burden Chords, Windowpane
Tab, In My Time Of Need Tab  
  
  
  
   
   
     
    About the artist behind The Amen Corner Tab:   
    
     Opeth is a Swedish heavy metal band that formed in 1990 in
Stockholm. While the band has been through several personnel changes,
singer, guitarist, and songwriter Mikael Ã…kerfeldt has remained
Opeth's driving force since joining shortly after its inception.While
firmly rooted in Scandinavian death metal, Opeth has consistently
incorporated influence by progressive music, folk, blues rock and jazz
into their usually lengthy songs. Many compositions include acoustic
guitar parts and strong dynamic shifts, as well as both growling and
clean vocals. Though they rarely toured in support of their first four
albums, Opeth conducted their first world tour after the 2001 release
of Blackwater Park.Opeth has released nine studio albums, two live
albums, one box set, and one DVD. The band released its debut album
Orchid in 1995, but did not experience American commercial success
until the 2003 release of seventh effort Damnation which debuted at
number 192 on the Billboard 200. Opeth's ninth studio album,
Watershed, was released on June 3, 2008 and debuted at number 23
.Indexed at Wikipedia.      
The Amen Corner Tab!
     
The Amen Corner Tab, 


   Current rating: 0
   
   Rate: 
   1 
   2 
   3 
   4 
   5
  
  
  
    
    
  
  
 
 
     
      
     
     
 
 
  
  
   The chord pattern is shown here.   
  
  
  
 
 
 
 


  

 


 c4: "http://www.yourchords.com/65579/Opeth/The-Amen-Corner-Tab/"
Midi Mime Types SiteMap Contact Subscribe © 2014 JimmyLandStudios