Jet Tab (ver 2) - Paul Mccartney

"Jet"
"Paul Mccartney"
"39380751";

     
"Jet"
"Jet"
 Paul Mccartney - Jet (ver 2) Guitar Tab
    Jet Tab
    
       
   
-------------------------------------------------------------------------------
        JET - Paul McCartney
-------------------------------------------------------------------------------
Tabbed by:
Email:

Tuning:Standard

INTRO:
   B   Db D                                    Strum the D until it
says JET
e|------------|---7---------------------------------------------------------|
B|o----------o|-/8------JUST DO THE INTRO
TWICE-----------------------------|
G|--4-4--6-7--|----------------------------------4-4--6-7-------------------|
D|--4-4--6-7--|----------------------------------4-4--6-7-------------------|
A|o-2-2--4-5-o|----------------------------------2-2--4-5-------------------|
E|------------|-------------------------------------------------------------|
      2x

  A  (just do the a like until it says jet 3 times)
e|--------------------------------------------------------------------------|
B|2-2-2-2-------------------------------------------------------------------|
G|2-2-2-2-----I Dont Feel Like Typing All The A's  So
Yeah------------------|
D|2-2-2-2-------------------------------------------------------------------|
A|0-0-0-0-------------------------------------------------------------------|
E|--------------------------------------------------------------------------|
  JET!                JET!                             JET!

Verse
                                                 D  A
A                            D     D A         (FAC ES)
i can almost remember their funny faces
A
That time you told me that
                     D     D  A
You were going to be marrying soon.

JUST MUTE THROUGH IT
And jet, i thought the only

JUST MUTE THROUGH IT
Lonely place was on the moon.

(Play Nothing)
Jet! jet!

Jet! was your father as bold as a sergeant major?
How come he told you that
You were hardly old enough yet?

And jet, i thought the major

Was a lady suffragette.

Jet! jet!

B       I Dont Know The lead Sorry
Ah, matter, want jet to always love me?

Ah, matter, want jet to always love me?

Ah, matter, much later.

BRIDGE
e|-7--5--5--3--10--9--7---------------------------------------------------|
B|-7--5--5--3--10--9--7---------------------------------------------------|
G|-7--5--5--3--10--9--7---------------------------------------------------|
D|-7--5--5--3--10--9--7---------------------------------------------------|
A|------------------------------------------------------------------------|
E|------------------------------------------------------------------------|

Jet! with the wind in your hair of a thousand laces.
Climb on the back and we'll
Go for a ride in the sky.

And jet, i thought the major
Was a lady suffragette.

Jet! jet!
End:

e|---------------------------------------------------------------------------|
B|--5b7-5-3b-----------------------------------------------------------------|
G|----------4b-4-2-2-4-4-----------------------------------------------------|
D|-----------------------2b-2b-2-0-------------------------------------------|
| /  slide up
|   slide down
| h  hammer-on
| p  pull-off
| ~  vibrato
| +  harmonic
| x  Mute note
============================================================================
    
        

      
"Jet"
"Jet"
"Paul Mccartney" "Jet" "39380752"
      
     
     Paul Mccartney - Jet TabJet      People who played Paul Mccartney
- Jet Tab also played these songs by 
      Paul Mccartney:
      My Love Chords, Mull Of Kintyre Chords, Fool On The Hill Chords,
Jenny Wren Chords, Every Night Chords, Too Many People Chords, Ebony
And Ivory Chords, Maybe Im Amazed Chords, Band On The Run Chords  
  
  
  
   
   
     
    Quick tip, so you can enjoy Jet Tab even more:   
    
     After the registration (which takes just 10 seconds, remember?)
you will be able to use your profile - your very own 
       piece of YourChords.com.      
Jet Tab!
     
Jet Tab, 


   Current rating: 0
   
   Rate: 
   1 
   2 
   3 
   4 
   5
  
  
  
    
  
  
  
   

   

  
  
    
    
  
  
 
 
     
      
     
     
 
 
  
  
   The chord pattern is shown here.   
  
  
  
 
 
 
 


  

 


 c4: "http://www.yourchords.com/138529/Paul-Mccartney/Jet-ver-2-Tab/"
Midi Mime Types SiteMap Contact Subscribe © 2014 JimmyLandStudios