Blitzkrieg Bop Tab (ver 5) - Ramones

"Blitzkrieg Bop"
"Ramones"
"39380751";

     
"Blitzkrieg Bop"
"Blitzkrieg Bop"
 Ramones - Blitzkrieg Bop (ver 5) Guitar Tab
    Blitzkrieg Bop Tab
    
       
    Intro and verse (Note: when you have to hit 3 chords you have to
use your third finger
and plant it on 777 and 999)
e|----------------------------------------------------------|
B|--------------------------7--------9--------9--9--9-------|
G|--------6---6-6-6-6-6-6---7--------9--------9--9--9-------|
D|--------7---7-7-7-7-7-7---7--------9--------9--9--9-------|
A|--------7---7-7-7-7-7-7---5--------7--------7--7--7-------|(x3)
E|--------5---5-5-5-5-5-5-----------------------------------|
                                                             Hey Ho,
Let Go!
e|---------------------------------------                    
E|-------------|
B|-----------7-7-7-7---------------------                    
B|-------------|
G|--6-6-6-6--7-7-7-7-6--6-6-6-6-6-6-6----                    
G|-6-6-6-6-6-6-|
D|--7-7-7-7--7-7-7-7-7--7-7-7-7-7-7-7----                    
D|-7-7-7-7-7-7-|
A|--7-7-7-7--5-5-5-5-7--7-7-7-7-7-7-7----Hey Ho, Let's
Go!(x3)A|-7-7-7-7-7-7-|
E|--5-5-5-5----------5--5-5-5-5-5-5-5----                    
E|-5-5-5-5-5-5-|
                                                             
(distortion)
e|------------------------------------------------------------------------|
B|-7--7-7-7-7-7-7-7-----7--7-7-7-7-7-7-7----6---6---6---6---6---6---6---6-|
G|-7--7-7-7-7-7-7-7-----7--7-7-7-7-7-7-7----7---7---7---7---7---7---7---7-|
D|-7--7-7-7-7-7-7-7-----7--7-7-7-7-7-7-7----7---7---7---7---7---7---7---7-|
A|-5--5-5-5-5-5-5-5-----5--5-5-5-5-5-5-5----7---7---7---7---7---7---7---7-|
E|------------------------------------------5---5---5---5---5---5---5---5-|

   Hey     Ho              Let's Go!       shoot 'em in the back,   
now
e|----------------------------------------------------------------|
B|-7-7-7-----------------7--7-7-7-7-7-7-7---7-7-7-7-7-7-7-7-7-7-7-|
G|-7-7-7-6--6--6--6--6---7--7-7-7-7-7-7-7---7-7-7-7-7-7-7-7-7-7-7-|
D|-7-7-7-7--7--7--7--7---7--7-7-7-7-7-7-7---7-7-7-7-7-7-7-7-7-7-7-|
A|-5-5-5-7--7--7--7--7---5--5-5-5-5-5-5-5---5-5-5-5-5-5-5-5-5-5-5-|
E|-------5--5--5--5--5--------------------------------------------|

                         What  They Want,   I don't know. They're
e|--------------------------------------------------------|
B|-5--5--5--5--5--5--5--5-----7------9-----9--9--9--9-----|
G|-5--5--5--5--5--5--5--5-----7------9-----9--9--9--9-----|
D|-5--5--5--5--5--5--5--5-----7------9-----9--9--9--9-----|
A|-3--3--3--3--3--3--3--3-----5------7-----7--7--7--7-----|
E|--------------------------------------------------------|

   all  reved  up  and       ready-y   to  go
    
        

      
"Blitzkrieg Bop"
"Blitzkrieg Bop"
"Ramones" "Blitzkrieg Bop" "39380752"
      
     
     Ramones - Blitzkrieg Bop TabBlitzkrieg Bop      People who played
Ramones - Blitzkrieg Bop Tab also played these songs by 
      Ramones:
      I Wanna Be Sedated Chords, The Kkk Took My Baby Away Chords,
Beat On The Brat Chords, Have You Ever Seen The Rain Chords, Needles
And Pins Chords, Sheena Is A Punk Rocker Chords, Baby I Love You
Chords, Pet Sematary Chords, Blitzkrieg Bop Chords  
  
  
  
   
   
     
    About the artist behind Blitzkrieg Bop Tab:   
    
     The Ramones were an American rock band often regarded as the
first punk rock group.[4][5]Formed in Forest Hills, Queens, New York,
in 1974, all members of the band used stage names with their surnames
as "Ramone", though none of them are actually related. They performed
2,263 concerts, touring virtually non-stop for 22 years.[5] In 1996,
after a tour with the Lollapalooza music festival, the band played
their final show and then disbanded. The band's three founding
members—Joey Ramone, Johnny Ramone and Dee Dee Ramone—died within
eight years of the break-up.[6]The Ramones failed to achieve much
commercial success during their years of recording and performing.
Their only album to reach certified gold status in the U.S. was their
compilation album Ramones Mania.[7] Appreciation of the band has grown
since the 1980s, and they now regularly appear on "all-time greatest"
lists, such as Rolling Stone’s list of 100 Greatest Artists of All
Time, Rolling Stone’s list of 25 Greatest Live Albums of All
Time,[8] VH1's 100 Greatest Artists of Hard Rock and Mojo's 100
Greatest Albums.[9][10][11] In 2002, the Ramones were voted the second
greatest rock and roll band ever in Spin Magazine, trailing only The
Beatles.[12] On March 18, 2002, they were inducted into the Rock and
Roll Hall of Fame.[5][13]Indexed at Wikipedia.      
Blitzkrieg Bop Tab!
     
Blitzkrieg Bop Tab, 


   Current rating: 3.9
   
   Rate: 
   1 
   2 
   3 
   4 
   5
  
  
  
    
    
  
  
 
 
     
      
     
     
 
 
  
  
   The chord pattern is shown here.   
  
  
  
 
 
 
 


  

 


 c4:
"http://www.yourchords.com/70474/Ramones/Blitzkrieg-Bop-ver-5-Tab/"
Midi Mime Types SiteMap Contact Subscribe © 2014 JimmyLandStudios