Forbidden Game Tab - Siakol

"Forbidden Game"
"Siakol"
"39380751";

     
"Forbidden Game"
"Forbidden Game"
 Siakol - Forbidden Game Guitar Tab
    Forbidden Game Tab
    
       
    Forbidden Game
Classical

Transcribed by: Gerie Ice Tanabe
                ghost_iceman@yahoo.com

               
                                                                      
 
E||--7--------------7----|------------7---------|-------7--------------|
B||-------0--------------|--0--------------0----|------------0---------|
G||------------0---------|-------0--------------|--0--------------0----|
D||----------------------|----------------------|----------------------|
A||----------------------|----------------------|----------------------|
E||--0-------------------|----------------------|----------------------|
                                                                     
--5--------------3----|------------2---------|-------0--------------|
-------0--------------|--0--------------0----|------------0---------|
------------0---------|-------0--------------|--0--------------0----|
----------------------|----------------------|----------------------|
----------------------|----------------------|----------------------|
--0-------------------|------------0---------|----------------------|
                                                                      
--0--------------3----|------------7---------|-------12--------------|
-------0--------------|--0--------------0----|-------------0---------|
------------0---------|-------0--------------|--0---------------0----|
----------------------|----------------------|-----------------------|
----------------------|----------------------|-----------------------|
-----------------0----|------------0---------|-------0---------------|
                                                                      
  
--12--------------12----|------------12---------|-------10--------------|
--------0---------------|--0---------------0----|-------------0---------|
-------------0----------|-------0---------------|--0---------------0----|
------------------------|-----------------------|-----------------------|
------------------------|-----------------------|-----------------------|
------------------------|-----------------------|-----------------------|
                                                                     
--8--------------8----|--0---------7----0----|-------5----0---------|
-------0--------------|-------0--------------|----------------------|
------------0---------|----------------------|--5--------------5----|
----------------------|----------------------|----------------------|
-----------------0----|----------------------|----------------------|
----------------------|----------------------|----------------------|
                                                                     
--5----0---------7----|--0---------8----7----|------------7---------|
----------------------|----------------------|--7--------------7----|
------------5---------|-------5--------------|-------8--------------|
----------------------|-----------------7----|----------------------|
----------------------|----------------------|----------------------|
----------------------|----------------------|----------------------|
                                                                      

-------8--------------|--7--------------11----|-------------8---------|
------------7---------|-------7---------------|------------------7----|
--8--------------8----|------------8----------|--11----8--------------|
----------------------|-----------------------|-----------------------|
----------------------|-----------------------|-----------------------|
----------------------|-----------------------|-----------------------|
                                                                     
-------7--------------|--7--------------5----|------------3---------|
------------7---------|-------0--------------|--0--------------0----|
--8--------------8----|------------0---------|-------0--------------|
----------------------|----------------------|----------------------|
----------------------|----------------------|----------------------|
----------------------|--0-------------------|----------------------|
                                                                     
-------2--------------|--2--------------2----|------------2---------|
------------0---------|-------0--------------|--0--------------0----|
--0--------------0----|------------2---------|-------2--------------|
----------------------|----------------------|------------1---------|
----------------------|--2-------------------|----------------------|
----------------------|----------------------|----------------------|
                                                                     
-------3--------------|--2--------------0----|------------0---------|
------------0---------|-------0--------------|--0--------------0----|
--2--------------2----|------------2---------|-------0--------------|
----------------------|-----------------2----|----------------------|
----------------------|----------------------|------------2---------|
----------------------|----------------------|----------------------|
                                                                   
-------0--------------|--0------------7----|------------7---------|
------------0---------|--------------------|--0--------------0----|
--0--------------0----|--------------------|-------0--------------|
----------------------|--------------------|----------------------|
----------------------|--------------------|----------------------|
-------3--------------|--3------------0----|----------------------|
                                                                     
-------7--------------|--7--------------5----|------------3---------|
------------0---------|-------0--------------|--0--------------0----|
--0--------------0----|------------0---------|-------0--------------|
----------------------|----------------------|----------------------|
----------------------|----------------------|----------------------|
----------------------|-----------------0----|----------------------|
                                                                     
-------2--------------|--0--------------0----|------------3---------|
------------0---------|-------0--------------|--0--------------0----|
--0--------------0----|------------0---------|-------0--------------|
----------------------|----------------------|----------------------|
----------------------|----------------------|----------------------|
-------0--------------|----------------------|------------0---------|
                                                                      
 
-------7--------------|--12--------------12----|------------12---------|
------------0---------|--------0---------------|--0---------------0----|
--0--------------0----|-------------0----------|-------0---------------|
----------------------|------------------------|-----------------------|
----------------------|------------------------|-----------------------|
-------0--------------|--0---------------------|-----------------------|
                                                                      

-------12--------------|--10--------------8----|------------8----0----|
-------------0---------|--------0--------------|--0-------------------|
--0---------------0----|-------------0---------|-------0--------------|
-----------------------|-----------------------|----------------------|
-----------------------|-----------------------|------------0---------|
-----------------------|-----------------------|----------------------|
                                                                     
-------7----0---------|--5----0---------5----|--0---------7----0----|
--1-------------------|----------------------|----------------------|
-----------------5----|------------5---------|-------5--------------|
----------------------|----------------------|----------------------|
----------------------|----------------------|----------------------|
----------------------|----------------------|----------------------|
                                                                    
-------8--------7----|------------7---------|-------8--------------|
---------------------|--7--------------7----|------------7---------|
--5------------------|-------8--------------|--8--------------8----|
----------------7----|----------------------|----------------------|
---------------------|----------------------|----------------------|
---------------------|----------------------|----------------------|
                                                                      

--7--------------11----|-------------8---------|-------7--------------|
-------7---------------|------------------7----|------------7---------|
------------8----------|--11----8--------------|--8--------------8----|
-----------------------|-----------------------|----------------------|
-----------------------|-----------------------|----------------------|
-----------------------|-----------------------|----------------------|
                                                                     
--7--------------5----|------------3---------|-------2--------------|
-------0--------------|--0--------------0----|------------0---------|
------------0---------|-------0--------------|--0--------------0----|
----------------------|----------------------|----------------------|
----------------------|----------------------|----------------------|
--0-------------------|----------------------|----------------------|
                                                                     
--2--------------2----|------------2---------|-------3--------------|
-------0--------------|--0--------------0----|------------0---------|
------------2---------|-------2--------------|--2--------------2----|
----------------------|------------1---------|----------------------|
--2-------------------|----------------------|----------------------|
----------------------|----------------------|----------------------|
                                                                     
--2--------------0----|------------0---------|-------0--------------|
-------0--------------|--0--------------0----|------------0---------|
------------2---------|-------0--------------|--0--------------0----|
-----------------2----|----------------------|----------------------|
----------------------|------------2---------|----------------------|
----------------------|----------------------|-------3--------------|
                                                                   
--0------------4----|------------4---------|----------------------|
--------------------|----------------------|-------8--------------|
--------------------|--5--------------5----|------------5---------|
--------------------|-------6--------------|--6--------------6----|
---------------6----|----------------------|-------6--------------|
--3-----------------|----------------------|----------------------|
                                                                     
----------------------|------------0---------|----------------------|
--6--------------6----|----------------------|-------4--------------|
-------5--------------|--5-------------------|------------2---------|
------------6---------|-------6---------7----|--4--------------4----|
----------------------|----------------------|----------------------|
----------------------|------------7---------|----------------------|
                                                                     
----------------------|------------9---------|-------9--------------|
--3--------------4----|-----------------7----|------------7---------|
-------2--------------|--2-------------------|--8--------------8----|
------------4---------|-------4----7---------|----------------------|
----------------------|----------------------|----------------------|
----------------------|----------------------|----------------------|
                                                                      

--9--------------11----|-------------9---------|-------7--------------|
-------7---------------|------------------7----|------------9---------|
------------8----------|--11----8--------------|--8--------------9----|
-----------------------|-----------------------|----------------------|
-----------------------|-----------------------|----------------------|
-----------------------|-----------------------|----------------------|
                                                                      

--7--------------9----|------------11---------|-------12---------0----|
-------9--------------|--9---------------9----|-------------9---------|
------------9---------|-------9---------------|--9--------------------|
----------------------|-----------------------|-----------------------|
----------------------|-----------------------|-----------------------|
----------------------|-----------------------|-----------------------|
                                                                      
  
--12----------0----11----|-------0----10---------|--0----9--------------|
-------------------------|--9---------------9----|------------6---------|
--------13---------------|-----------------------|-----------------6----|
-------------------------|-----------------------|----------------------|
-------------------------|-----------------------|-------7--------------|
-------------------------|-----------------------|----------------------|
                                                                     
--9--------------7----|------------6---------|-------4--------------|
-------6--------------|--6--------------6----|----------------------|
------------6---------|-------6--------------|--6---------5---------|
----------------------|----------------------|-----------------6----|
----------------------|----------------------|-------6--------------|
----------------------|----------------------|----------------------|
                                                                     
--4--------------5----|------------5---------|-------0--------------|
----------------------|-------0--------------|--0---------0---------|
-------5--------------|--6--------------6----|-----------------0----|
------------6---------|----------------------|-------2--------------|
-----------------7----|----------------------|----------------------|
----------------------|----------------------|----------------------|
                                                                      
         
--0--------------0----|------------0--------|
-------0--------------|--0------------------|
------------0---------|-------0-------------|
----------------------|---------------------|
--2-------------------|---------------------|
-----------------3----|------------3--------|
    
        

      
"Forbidden Game"
"Forbidden Game"
"Siakol" "Forbidden Game" "39380752"
      
     
     Siakol - Forbidden Game TabForbidden Game      People who played
Siakol - Forbidden Game Tab also played these songs by 
      Siakol:
      Ituloy Mo Lang Chords, Hindi Mo Ba Alam Chords, Hiling Chords,
Bakit Ba Chords, Peksman Chords, Hagupit Chords, Habang Ang Lahat
Chords, Inday Chords, Yakap Chords, Wag Mong Isipin Yon Chords  
  
  
  
   
   
     
    Quick tip, so you can enjoy Forbidden Game Tab even more:   
    
     Try out the AutoScroller option ... It scrolls the page for you,
so you can totally focus on nailing that solo. 
       You can choose among different speeds using your mouse or your
keyboard (keys 0, 1, 2 and 3).      
Forbidden Game Tab!
     
Forbidden Game Tab, 


   Current rating: 4.9
   
   Rate: 
   1 
   2 
   3 
   4 
   5
  
  
  
    
    
  
  
 
  
 
 
  
  
   The chord pattern is shown here.   
  
  
  
 
 
 
 


  

 


 c4: "http://www.yourchords.com/76370/Siakol/Forbidden-Game-Tab/"
Midi Mime Types SiteMap Contact Subscribe © 2014 JimmyLandStudios