Misery Loves Its Company Tab (ver 6) - The Red Jumpsuit Apparatus

"Misery Loves Its Company"
"The Red Jumpsuit Apparatus"
"39380751";

     
"Misery Loves Its Company"
"Misery Loves Its Company"
 The Red Jumpsuit Apparatus - Misery Loves Its Company (ver 6) Guitar
Tab
    Misery Loves Its Company Tab
    
       
     After looking for a tab for this song, I decided to learn it by
ear and by 
watching live vids. This is what I came up with, I hope you like it.
I've also 
tabbed out Rhythm guitar and may submit a tab on that if I get asked
for it.
*Search ELITE815 on youtube for videos of me playing lead, and rhythm
for this song*
Guitar 1, Elias

Intro A 
clean chords. refer to song for strumming rhythm/pattern
d|-----------------|
a|-----------------|
f|--6---7---2---1--|
c|--7---7---2---2--|
G|--4---5---0---0--|
C|-----------------|

Intro B
d|------------------------------------------------------10--------------|
a|------------------------------------------------------x---------------|
f|-----------------7------------------------------------7---------------|
c|-----------------x----------------------------------------------------|
G|-4--4-4--4-4--4--5--4--4-4--4--7-6-2--0--0-0--0-0--0-----0--0-0--0-0--|
C|-4--4-4--4-4--4-----4--4-4--4--7-6-2--0--0-0--0-0--0-----0--0-0--0-0--|

End 1                End 2 into verse
d|-----------------|-----|
a|-----------------|-----|
f|-----------------|-----|
c|--6h7p6-4-4h5p4--|-----|
G|-----------------|--2--|
C|-----------------|--2--|

Verse 1
    A                          verse B x2
d|-----------------| B
|-----------------------------------------------|
a|-----------------|  
|-----------------------------------------------|
f|-----------------|  
|-----------------------------------------------|
c|----------7------|  
|--7-6-7-9-7-6-7-6-7-9-7-6-7-6-7-9-7-6-7-6---6--|
G|--4---7---5---2--|  
|------------------------------------------9----|
C|--4---7-------2--|  
|-----------------------------------------------|

Chorus
Octave chords. Refer to song for strumming rhythm/pattern
d|------------------------------------------------------------|
a|--10--12--9---10--12--9---10--12--14---15---14---12--10--9--|Chorus
x1
f|--x---x---x---x---x---x---x---x---x----x----x----x---x---x--|
c|--7---9---6---7---9---6---7---9---11---12---11---9---7---6--|
G|------------------------------------------------------------|
C|------------------------------------------------------------|

Verse 2
Chugs on verse A              verse B x2
d|-----------------| B
|-----------------------------------------------|
a|-----------------|  
|-----------------------------------------------|
f|-----------------|  
|-----------------------------------------------|
c|----------7------|  
|--7-6-7-9-7-6-7-6-7-9-7-6-7-6-7-9-7-6-7-6---6--|
G|--4---7---5---2--|  
|------------------------------------------9----|
C|--4---7-------2--|  
|-----------------------------------------------|

Chorus
Octave chords. Refer to song for strumming rhythm/pattern
d|------------------------------------------------------------|
a|--10--12--9---10--12--9---10--12--14---15---14---12--10--9--|Chorus
x2
f|--x---x---x---x---x---x---x---x---x----x----x----x---x---x--|
c|--7---9---6---7---9---6---7---9---11---12---11---9---7---6--|
G|------------------------------------------------------------|
C|------------------------------------------------------------|

Clean Breakdown A play x4
d|----------------------------|
a|-----12----10-----9-----10--|
f|--11----11----11----11------|
c|----------------------------|
G|----------------------------|
C|----------------------------|

Breakdown B play x4

Clean w/ light distortion/overdrive
d|-------------------------------------|------|
a|-----12-12----10-10----9-9----10-10--|------|ending on 4th time
f|--11-------11-------11-----11--------|--11--|
c|-------------------------------------|------|
G|-------------------------------------|------|
C|-------------------------------------|------|

play x1 before chorus
d|--10--|
a|--x---|
F|--7---|
c|------|
G|------|
C|------|

Chorus
Octave chords. Refer to song for strumming rhythm/pattern
Play with volume on guitar at about 6/10 the first time.
d|--------------------------------------------------------------|
a|---10--12--9---10--12--9---10--12--14---15---14---12--10--9---|Chorus
x2
f|---x---x---x---x---x---x---x---x---x----x----x----x---x---x---|
c|---7---9---6---7---9---6---7---9---11---12---11---9---7---6---|
G|--------------------------------------------------------------|
C|--------------------------------------------------------------|

Outro A
d|------------------------------------------------------10-------------|
a|------------------------------------------------------x--------------|
f|-----------------7------------------------------------7--------------|
c|-----------------x---------------------------------------------------|
G|-4--4-4--4-4--4--5--4--4-4--4--7-6-2--0--0-0--0-0--0-----0--0-0--0-0-|
C|-4--4-4--4-4--4-----4--4-4--4--7-6-2--0--0-0--0-0--0-----0--0-0--0-0-|

outro A cont.
d|----------------|
a|----------------|
f|----------------|outro x2
c|-6h7p6-4-4h5p4--|
G|----------------|
C|----------------|

Outro B
d|------------------------------------------------|
a|------------------------------------------------|
f|------------------------------------------------|
c|-6h7p6-4-4h5p4--6h7p6-4-4h5p4--6h7p6-4-4h5p4----|
G|----------------------------------------------4-|
C|----------------------------------------------4-|

Thanks for checking out my tab.

    
        

      
"Misery Loves Its Company"
"Misery Loves Its Company"
"The Red Jumpsuit Apparatus" "Misery Loves Its Company" "39380752"
      
     
     The Red Jumpsuit Apparatus - Misery Loves Its Company TabMisery
Loves Its Company      People who played The Red Jumpsuit Apparatus -
Misery Loves Its Company Tab also played these songs by 
      The Red Jumpsuit Apparatus:
      Your Guardian Angel Chords, Face Down Acoustic Chords, Face Down
Chords, Guardian Angel Chords, Cat And Mouse Chords, Guardian Angel
Acoustic Chords, Your Gurdian Angel Chords, False Pretense Chords,
Damn Regret Chords  
  
  
  
   
   
     
    About the artist behind Misery Loves Its Company Tab:   
    
     The Red Jumpsuit Apparatus (also known as Red Jumpsuit Apparatus
or RJA) is a band that formed in 2003 in Jacksonville, Florida. The
band consists of lead vocalist Ronnie Winter, lead guitarist Elias
Reidy, bassist Joey Westwood, guitarist Duke Kitchens, and drummer Jon
Wilkes; all perform back-up vocals. Their debut major label album
Don't You Fake It was released on July 18, 2006, and has since been
certified platinum.Indexed at Wikipedia.      
Misery Loves Its Company Tab!
     
Misery Loves Its Company Tab, 


   Current rating: 0
   
   Rate: 
   1 
   2 
   3 
   4 
   5
  
  
  
    
    
  
  
 
 
     
      
     
     
 
 
  
  
   The chord pattern is shown here.   
  
  
  
 
 
 
 


  

 


 c4:
"http://www.yourchords.com/279367/The-Red-Jumpsuit-Apparatus/Misery-Loves-Its-Company-ver-6-Tab/"
Midi Mime Types SiteMap Contact Subscribe © 2014 JimmyLandStudios