Rocket Acoustic Tab - Yellowcard

"Rocket Acoustic"
"Yellowcard"
"39380751";

     
"Rocket Acoustic"
"Rocket Acoustic"
 Yellowcard - Rocket Acoustic Guitar Tab
    Rocket Acoustic Tab
    
       
   
e|---------0------------------0----------------0-2-3--------2-3---------------|
B|-----3-----3---3--------3-----3---3--------3-------3-----3----3-------------|
G|---2---2-----2------------2-----2-------0-------------0---------------------|
   4x
D|-4--------------------4-----------------------------------------------------|
A|----------------------------------------------------------------------------|
D|----------------------------------------------------------------------------|

Some Chords

D             G    D          G
Sleeping late on  Warm After noon
D         G     D            G
Waking up to  Bright SIlver moon
e|------|
B|-33---|
G|----2-|   16X    Or Intro 2X
D|------|
A|------|
D|------|

D              G   D            G
Silent words from   My heart to you
D           G     D              G
My empty filled  Filled up with you
Chorus
    (4x)       (2x)             (1x)
e|----0----|------0---|------3---5----3-----|
B|--3---3--|----3---3-|----3---3----3---3---|
G|-2-------|--4-------|--0------------------| 4X
D|---------|----------|---------------------|
A|---------|----------|---------------------|
D|---------|----------|---------------------|

or

D               G7        D    G
I slip another Smile in your pocket
D              G7                D  G         4X
My Heart is racing to you like a rocket
Intro 2x
D         g         D             G
My Empty Filled   Filled Up with you.
Chorus

e|----------------------------------|
B|------------------4-4-4-4---------|
G|------------------4-4-4-4---------|
D|--0-0-0-0-0-0-0-0-2-2-2-2-5-5-5-5-|     This while singing Chorus or
A|--0-0-0-0-0-0-0-0---------5-5-5-5-|
D|--0-0-0-0-0-0-0-0---------5-5-5-5-|

D               G7        D    G
I slip another Smile in your pocket
D              G7                D  G         4X
My Heart is racing to you like a rocket
Then that gets old so go into this
    (4x)       (2x)             (1x)
e|---------|----------|---------------------|
B|-----5---|------5---|------8---10---8-----|
G|---7---7-|----7---7-|----7---7----7---7---|  2x
D|-7-------|--9-------|--5------------------|
A|---------|----------|---------------------|
D|---------|----------|---------------------|

Then Finish up with

D               G7        D    G
I slip another Smile in your pocket
D              G7                D  G         1x
My Heart is racing to you like a rocket
*Well guys if you can sing this to a girl you are for life. The real
version didn't work 
for this purpose so I worked this out and am yet to work up enough
courage to try it. 
me know what you think at swskunker@aol.com or
Myspace.com/scottnwilliams. Best of luck! Scott :)
    
        

      
"Rocket Acoustic"
"Rocket Acoustic"
"Yellowcard" "Rocket Acoustic" "39380752"
      
     
     Yellowcard - Rocket Acoustic TabRocket Acoustic      People who
played Yellowcard - Rocket Acoustic Tab also played these songs by 
      Yellowcard:
      Only One Acoustic Chords, Only One Chords, Ocean Avenue Acoustic
Tab, Light Up The Sky Chords, Cigarette Chords, How I Go Chords, Way
Away Acoustic Chords, Takedown Tab, Ocean Avenue Chords  
  
  
  
   
   
     
    About the artist behind Rocket Acoustic Tab:   
    
     Yellowcard is an alternative rock multi-platinum selling band
from Jacksonville, Florida. Their music features a rare contribution
to the genre, incorporating the use of a violin.The band is not
currently active and is on a self-described "indefinite
hiatus."Indexed at Wikipedia.      
Rocket Acoustic Tab!
     
Rocket Acoustic Tab, 


   Current rating: 0
   
   Rate: 
   1 
   2 
   3 
   4 
   5
  
  
  
    
  
  
  
   

   

  
  
    
    
  
  
 
 
     
      
     
     
 
 
  
  
   The chord pattern is shown here.   
  
  
  
 
 
 
 


  

 


 c4:
"http://www.yourchords.com/144810/Yellowcard/Rocket-Acoustic-Tab/"
Midi Mime Types SiteMap Contact Subscribe © 2014 JimmyLandStudios