Anxiety Tab (ver 2) - Black Eyed Peas

"Anxiety"
"Black Eyed Peas"
"39380751";

     
"Anxiety"
"Anxiety"
 Black Eyed Peas - Anxiety (ver 2) Guitar Tab
    Anxiety Tab
    
       
                                                  Anxiety Tab    
    by Black Eyed Peas tabs |           tabbed by metalkamikazee |    
     comments (0)                                              1      
                2                       3                       4     
                 5                                                    
                        print                                         
       send                                                 report    
                                                                      
                                 More versions:                       
                                                                      
                                    Ver 1                             
                                                                      
                                                                      
                                                                      
                                                                      
                                                                      
                                                                      
                      Recommended tabs                                
                          If you like Anxiety Tab by Black Eyed Peas
you might also like these songs:                         Lifeline
Intro Tabby Papa Roach                         Black Label Tabby Lamb
Of God                         Had Enough Tabby Papa Roach            
                                                                      
                                            Anxiety Lyricsby Black
Eyed Peas Lyrics                      Anxiety Tabat 911Tabs.com       
                                                                      
                                                                      
                                                                      
                                                                 
                                                                      
          + to speed up (numpad)               - to slow down (numpad)
              Esc to stop                            Help             
                                                                      
                                                                     
Anxiety tab by Black Eyed Peas, www.Ultimate-Guitar.Com               
                             Listen to Anxiety                        
                     Add to favourites                                
                                  Tuning (this tab): Drop D [ D A D G
B E ]                                                                 
  Difficulty: novice                                                  
                                tf_artist = "Black Eyed Peas";        
  tf_song = "Anxiety";                                                
           The other version was standard, this one is on Drop D

INTRO:
E|-----------5------------3-------|------------8---------------3------------|
B|--------------------------------|-----------------------------------------|
G|--------5------------2----------|---------5---------------2---------------|
1X
D|-----7-----------3--------------|-----7---------------3-------------------|
A|--------------------------------|-----------------------------------------|
D|--7-----------3-----------------|--7---------------3----------------------|

 RIFF A:
E|--------------------------------|-----------------------------------------|
B|--------------------------------|---------------5-------------------------|
G|---------------5----------------|-----------------------------------------|

D|--7-7---5h7p5-----7-5-7---------|--7-7---5h7p5-----7-5h7p5----------------|\

A|--7-7---------------------------|--7-7------------------------------------|
\
D|--7-7---------------------------|--7-7------------------------------------|
 \2X

E|--------------------------------|-----------------------------------------|
 / 
B|--------------------------------|---------------5-------------------------|
/
G|---------------5----------------|-----------------------------------------|/
  
D|--3-3---5h7p5-----7-5-7---------|--3-3---5h7p5-----7-5h7p5----------------|
A|--3-3---------------------------|--3-3------------------------------------|
D|--3-3---------------------------|--3-3------------------------------------|

 RIFF B:
E|--------------------------------|
B|--------------------------------|
G|--------------------------------| 2X
D|--7-7---7-7-----3-3---3-3-------|
A|--7-7---7-7-----3-3---3-3-------|
D|--7-7---7-7-----3-3---3-3-------|

 PRE-CHORUS:
E|--------------------------------|
B|--------------------------------|
G|--------------------------9-9---| 3X
D|--7-7--10p9-7--9-7-10-7---------|
A|--------------------------------|
D|--------------------------------|

 CHORUS:
E|--------XXXX--------------------|
B|--------XXXX--------------------|
G|--------XXXX--------------------| 2X
D|--7-7---------------------------|
A|--7-7----------5/7--5/3---------|
D|--7-7---------------------------|

E|--------------------------------|-----------------------------------------|
B|--------------------------------|-----------------------------------------|
G|--------------------------------|-----------------------------------------|
D|--3-3---------------------------|--3-3------------------------------------|
A|--3-3----3p0--2h3p2--0----------|--3-3---3p0--2/0-------------------------|
D|--3-3---------------------------|--3-3------------------------------------|

E|--------XXXX--------------------|
B|--------XXXX--------------------|
G|--------XXXX--------------------| 2X
D|--7-7---------------------------|
A|--7-7----------5/7--5/3---------|
D|--7-7---------------------------|

E|--------------------------------|-----------------------------------------|
B|--------------------------------|-----------------------------------------|
G|--------------------------------|-----------------------------------------|
D|--3-3---------------------------|--3-3------------------------------------|
A|--3-3----3p0--2h3p2--0----------|--3-3---3p0--2/0-------------------------|
D|--3-3---------------------------|--3-3------------------------------------|
 
 RIFF C: THIS IS THE PART WHERE HE'S RAPPING AND THERE'S A LITTLE
PAUSE
E|--------------------------------|-----------------------------------------|
B|--------------------------------|---------------5-------------------------|
G|---------------5----------------|-----------------------------------------|

D|--7-7---5h7p5-----7-5-7---------|--7-7---5h7p5-----7-5h7p5----------------|
A|--7-7---------------------------|--7-7------------------------------------|
D|--7-7---------------------------|--7-7------------------------------------|

E|--------------------------------|-----------------------------------------|
B|--------------------------------|---------------5-------------------------|
G|---------------5----------------|-----------------------------------------|

D|--3-3---5h7p5-----7-5-7---------|--3-3---5h7p5-----7----------------------|
A|--3-3---------------------------|--3-3------------------------------------|
D|--3-3---------------------------|--3-3------------------------------------|

E|--------------------------------|-----------------------------------------|
B|--------------------------------|---------------5-------------------------|
G|---------------5----------------|-----------------------------------------|

D|--7-----5h7p5-----7-5-7---------|--7-7---5h7p5-----7-5h7p5----------------|
A|--7-----------------------------|--7-7------------------------------------|

D|--7-----------------------------|--7-7------------------------------------|
  AFTER THIS CONTINUE THE OTHER HALF OF RIFF A

 RIFF D:
E|-----------5--------------------|-----------3-----------------------------|
B|--------------------------------|-----------------------------------------|
G|--------5-----------------------|--------2--------------------------------|

D|--7-7---------7-7---------------|---3-3----------3-3----------------------|
A|--7-7---------7-7---------------|---3-3----------3-3----------------------|
D|--7-7---------7-7---------------|---3-3----------3-3----------------------|

E|-----------8--------------------|-----------3-----------------------------|
B|--------------------------------|-----------------------------------------|
G|--------5-----------------------|--------2--------------------------------|

D|--7-7---------7-7---------------|---3-3----------3-3----------------------|
A|--7-7---------7-7---------------|---3-3----------3-3----------------------|
D|--7-7---------7-7---------------|---3-3----------3-3----------------------|
SONG ORDER
-----------
INTRO
RIFF A
RIFF B
PRE-CHORUS
CHORUS
RIFF C
RIFF D
RIFF A
PRE-CHORUS
CHORUS
INTRO
PRE-CHORUS
CHORUS                                               Anxiety Lyrics   
                                             tf_artist = "Black Eyed
Peas";           tf_song = "Anxiety";                                 
                                                                      
                                 
    
        

      
"Anxiety"
"Anxiety"
"Black Eyed Peas" "Anxiety" "39380752"
      
     
     Black Eyed Peas - Anxiety TabAnxiety      People who played Black
Eyed Peas - Anxiety Tab also played these songs by 
      Black Eyed Peas:
      I Gotta Feeling Chords, Boom Boom Pow Chords, Alive Chords, Pump
It Tab, Lets Get It Started Chords, Where Is The Love Chords, My Humps
Tab, Shut Up Chords, Imma Be Chords, Dont Lie Chords  
  
  
  
   
   
     
    About the artist behind Anxiety Tab:   
    
     The Black Eyed Peas are an American hip hop/pop group from Los
Angeles. The group is currently composed of will.i.am, apl.de.ap,
Taboo and Fergie. Since their breakout album Elephunk in 2003, they
have seen international fame for their pop/dance-oriented style of hip
hop music. Black Eyed Peas have sold an estimated twenty-seven million
albums and singles worldwide.Indexed at Wikipedia.      
Anxiety Tab!
     
Anxiety Tab, 


   Current rating: 0
   
   Rate: 
   1 
   2 
   3 
   4 
   5
  
  
  
    
  
  
  
   

   

  
  
    
    
  
  
 
 
     
      
     
     
 
 
  
  
   The chord pattern is shown here.   
  
  
  
 
 
 
 


  

 


 c4:
"http://www.yourchords.com/210412/Black-Eyed-Peas/Anxiety-ver-2-Tab/"
Midi Mime Types SiteMap Contact Subscribe © 2014 JimmyLandStudios