Guitar Tablature

       Diatonic scale on C, guitar tablature
       
	 File: 82  Score: 5  against: +AC/DC +- 'WALK ALL OVER YOU' Guitar tabs :: Complete and free!
       

	





	

document.write('(function ()
{try{VCM.media.render({sid:64322,media_id:1,media_type:5,version:"1.2"});}
catch(e){document.write(\'\');}}());');









	Guitar tabs home
		   
   			Submit tabs
		
    
    Community & forum
		
	        Community home
			Guitar forum
			Member videos
			Member photos
		    
    
	Video lessons
	Text lessons
	
	 
	
	

 


qm_create(0,false,0,250,false,false,false,false,false);




Guitar Tabs Explorer  » A » AC/DC tabs » Walk all
over you (Guitar tabs)

  
    
    
(function(d, s, id) {
  var js, fjs = d.getElementsByTagName(s)[0];
  if (d.getElementById(id)) {return;}
  js = d.createElement(s); js.id = id;
  js.src = "//connect.facebook.net/en_US/all.js#xfbml=1";
  fjs.parentNode.insertBefore(js, fjs);
}(document, 'script', 'facebook-jssdk'));

  


AC/DC - “Walk all over you“ Guitar tabs

			
				
				
				
				
				
				
			
			
AC/DC guitar tabs and guitar video lesson for Walk all over you. Learn
how to play Walk All Over You by AC/DC on guitar in this free guitar
lesson from SoloDallas. Related pages are Burning alive tabs, 
 Inject the venom chords, 
 Tnt (Ver2) chords, 
 Its a long way to the top chords, 
 Highway to hell (Ver2) chords. See all AC/DC tabs. Submit corrected
and missing guitar tabs here. 




  
    Check it out...Join our new guitar forum & community. Click
here!
  
  
    [Guitar forum|Member images|Member videos]
  




Song: Walk All Over You
Artist: ACDC
Album: Highway to Hell
Transcribed by Mark Kessel

The introductory E is held for  beats, and you walk-up to the G on the
up 
beat of the first beat in the next measure.  In other words, 1 2 3 4 &
A 1.  
The G and D are half notes, and the A is held for measures.  I wasn^t
able 
to figure out the second solo, but doesn^t sound that difficult.  I
do not 
have my guitar with me right now, so forgive any errors that you find.

Intro Riff/Chorus
r--------3--2--r--
r--------3--3--2--
r--------0--2--2--
2--------0--r--2--
2--------2--r--0--
0------3-3--r--r--

After Intro-

r-3-2-rrr-
r-3-3-232-
r-0-2-222-
2-0-r-222-
2-2-r-000-
0-3-r-rrr-

Verse A

r----2-2-2-r-r-r-
r----3-3-3-2-2-2-
r----2-2-2-2-2-2-
2----r-r-r-2-2-2-
2----r-r-r-0-0-0-
0----r-r-r-r-r-r-

Verse B

|r---rrrrrr-r-
|r---232323-r-
|2---222222-2-
|2---222222-2-
|0---000000-2-
|r---rrrrrr-0-

Progression:
Intro 5x
Afterwards 8x
Verse A 3x
Verse B 1x
Verse A 3x
Verse B 1x
Chorus(Intro) 4x
Afterwards under Solo 1
Verse A 3x
Verse B 1x
Chorus 4x
Afterwards under Solo 2

Solo 1
-----------------------------------------------------------
-----------------------------------------------------------
-7^9-7^9-7^9-7^9-7^9-7^9-9-9-7-7---------7-9------
-----------------------------------------9-9-7-9----------
-----------------------------------------------------------
-----------------------------------------------------------

-----------------------------------------------------------
9-9-7-7-----9^11-9^11-9^11-9^11---------------------
--------9-9------------------------------------------------
-----------------------------------------------------------
-----------------------------------------------------------
-----------------------------------------------------------




  
    Check it out...Join our new guitar forum & community. Click
here!
  
  
    [Guitar forum|Member images|Member videos]
  




	

	       
	

	














Midi Mime Types SiteMap Contact Subscribe © 2014 JimmyLandStudios