Artist: Texas Little | Song: What Were You Thinking
 

  

 

 






 
Texas Little, What Were You Thinking Tabs

 
 Texas Little

Buy: Texas Little 
Little Texas 
Texas Little 
> Little Texas 
Tabs > What Were You ThinkingArtist/Band: Little Texas Tabs
Song: What Were You Thinking Tab



What were you thinking
By:  Little Texas

Key of A

Intro: A  D  E  A (2 times)

A                 E           F#m                 D
So you think I'll be alright, and I'll forget you in time
A                               E            
And I won't want you here with me every night,
F#m                         D
And we can still be friends once in a while.
        E   D                   E
Think again, cause maybe you're wrong
Bm        F#m                   D                         E
How can I just be friends with someone I've loved for so long.

Chorus:
D             E     A           F#m         D        E      A
What were you thinking when you turned your back and walked away?
F#m        D            E   A             F#m       D      E        A
Who do you think you're leavin'?  Did you think I'd let it end this
way?
F#m            E    A    (D, Bm, E, D (two times))
What were you thinking?

A               E               F#m                      D
If you're gonna break my heart, you'll have to do it the hard way
A                          E
And if you're really gonna tear us apart,
F#m                               D
Then can't you think of something better to say
                   E       D                  E
Than you'll always love me, but you need some time?
Bm                    F#m                   D               E
You're only trying to tell me goodbye, stop trying to be so kind.

Chorus(instead of playing A at the end, go right to next verse in D)

D                   A                           F#m
I would never wanna leave you, but if I were to leave you
                         E      (no chord)                D
I would never leave this way, how could you leave me this way?

Solo (below-play chords D E A D E A F#m D E A F#m D E A)

Chorus + D  E  A
F#m             E  A    F#m                E         F#m  D  E  A F#m
D
E A
what were you thinkin'? Baby what were you thinkin'?  Yeah   yeah
     
|-------------------------------------------------------------------------
|-------3-----------------------------------------------------------------
|-4(6)6---6-5-4-2-4-2---2-4-4(5)(4)p2h4-2-4(5)(4)p2h4-------------9(10)(9)
|---------------------4-------------------------------2--11-11-11---------
|-------------------------------------------------------------------------
|-------------------------------------------------------------------------
   play the 6(and 5)
on the bend for both


|----------------------9(10)(9)-11/12-12-12-9h10p9------------10----------------------
|------10(11)(10)----------------------------------10---12(13)---12(13)(12)-10-9-10---
|-----------------------------------------------------9-----------------------------11
|11-11-----------11-11----------------------------------------------------------------
|-------------------------------------------------------------------------------------
|-------------------------------------------------------------------------------------

Jason A. Wendtland 
 Please, support Texas Little.
Little Texas CDs | Buy 
Little Texas Posters






         

 
  
All 
tabs are the author's own work and represents their interpretation of
the song, 
tablature for bass,
or lead guitar. You may only use this tab or chord file for private
study, scholarship 
or research. 


Midi Mime Types SiteMap Contact Subscribe © 2014 JimmyLandStudios