Christmas All-Time Greatest, Vol. 02 (2010)

       1. Jingle Bell Rock - Bobby Helms 2. Rockin' Around The Christmas Tree - Brenda Lee 3. Santa Claus Is Coming To Town - The Andrews Sisters 4. Silver Bells - Bing Crosby 5. Have Yourself A Merry Little Christmas - Judy Garland 6. The Christmas Song - Osmon
       
	 File: 59  Score: 1.4  against: +Time: +12/8  Drop D Tuning DADGBE
Tempo: Larghetto 60 bpm

 r = eighth rest R quarter rest

Lacrimosa dies illa,
qua resurget ex favilla
judicandus home reus.

Huic ergo parce, Deus,
pi
       
Time: 12/8  Drop D Tuning DADGBE
Tempo: Larghetto 60 bpm

  r = eighth rest  R = quarter rest

Lacrimosa dies illa,
qua resurget ex favilla
judicandus home reus.

Huic ergo parce, Deus,
pie Jesu, Jesu Domine!
Dona eis, eis requiem!
Amen.


12/8 - one and a, two and a, three and a, four and a...

                     CV................|                           
cII......| 
1  |  .  .  |  .  .  |  .  .  |  .  .    |  .  .  |  .  .  |  .  .  | 
.  .  
e|----------r--5h-6-----------r--8p-6--|-------10-r--6--3--r--0h-1--r--5-----|
B|-------------------------------------|-r--10----5========3========------2--|
G|-r--6h-7-----------r--7p-6--5========|-7========---------2========2========|
D|-0========7========5========5========|----------5========------------------|
A|-8========8========7========---------|-8========------------------0========|
D|-------------------------------------|-------------------------------------|
   0   2 3  3  1 2   1  4  2  1  4  2    1   4 4  3  4  1  3  0  1  1 
4  1
   4        4        3                   2        2        2        0

3  |  .  .  |  .  .  |  .  .  |  .  .    |  .  .  |  .  .  |  .  .  | 
.  .  
e|-------------1-----------------------|-------------1-----------------------|
B|----------------3--3--------2--------|----------------3--3--------2--------|
G|-2--------2--2--3--0--------0--3p-2--|-2--------2--2--3--0--------0--3p-2--|
D|-3-----0--------------0--------------|-3-----0--------------0--------------|
A|----4--------------------4--0========|----4--------------------4--0========|
D|-0========3========2========---------|-0========3========2========---------|
   1  3  0  2  1  4  4  0  3  2  3  2    1  3  0  2  1  4  4  0  3  2 
3  2
   2        3  2  3  1                   2        3  2  3  1

5  |  .  .  |  .  .  |  .  .  |  .  .    |  .  .  |  .  .  |  .  .  | 
.  .  
e|-------------------------------------|-------------------------------------|
B|-------------------------------------|----------0--------1--------3--------|
G|----------------------------0-----0--|-2--------1--1-----2--2-----4--4-----|
D|-0-----0-----------3--0--3-----2-----|-3--3-----------2--------2--5-----5--|
A|----0-----7--4--7-----------3========|-------3-----------0========---------|
D|-0========7========0========---------|-3========2========---------5========|
            4  1  4  1  0  1  0  1  0    1  4  3  1  1  3  1  3  2  1 
2  3
            3                 2          4        2        3        2
                                         2                          3
                                                                    p
                              cII......|          cI.......|
7  |  .  .  |  .  .  |  .  .  |  .  .    |  .  .  |  .  .  |  .  .  | 
.  .  
e|----------0--------1--------2--------|-3--------4--------5--------5--------|
B|-4--------1--1-----1--1-----4--4-----|-3--3-----3--3-----6--6-----5--------|
G|-5--5-----0-----0--2-----2--2-----2--|-------0--------1--7-----7--6--6-----|
D|-5-----5-----------------------------|----------3-----------------------7--|
A|-3========1========0========3========|-2========1========0========0========|
D|-------------------------------------|-------------------------------------|
   2  4  3  2  2  0  1  1  2  1  3  1    4  3  0  4  3  1  1  2  3  1 
2  3 
   4        1        1        3          3        3        2        1
   3                 2        1          1        2        3        2
   1                          2                   1

9  |  .  .  |  .  .  |  .  .  |  .  .    |  .  .  |  .  .  |  .  .  | 
.  .  
e|-------------------------------1-----|----------------0--0-----------------|
B|----------------------------------3--|-1--1-----1--3--1-----------3-----3--|
G|-2--0--2--2--3--2--2-----2=====2-----|-0-----0=====---------2-----2--2-----|
D|-5--------5--------3--3-----3-----3--|-------------3-----3-----3--3--------|
A|-4========0========---------0========|----------0========---------0========|
D|-------------------0========---------|-2========---------3========---------|
   1  0  1  1  2  1  1  2  1  2  1  3    1  1  0  1  3  1  3  2  3  3 
1  3
   3        3        2           2  2    2           2     2        1
   2                                                                2

11 |  .  .  |  .  .  |  .  .  |  .  .    |  .  .  |  .  .  |  .  .  | 
.  .  
e|----------r--3-----------------------|-------------1--0--0-----------------|
B|-4--------------4--4--------3--------|-3--------3--3--------------3--------|
G|-0--3--0--r--3--0--1-----1-----1-----|-2--2-----2-----0--3-----3--------1--|
D|----------1========---3-----------3--|-3-----0--3--------3--3-----3--3-----|
A|-------------------1========1========|-0========0========1========1========|
D|-1========---------------------------|-------------------------------------|
   4  3  0   1  4 4  4  3  1  4  1  3    4  3  0  4  1     4  3  4  4 
3  1
   1            3    1        1          3        3  3     3        3
                     1                   2        2        1        1

13 |  .  .  |  .  .  |  .  .  |  .  .    |  .  .  |  .  .  |  .  .  | 
.  .  
e|-------------3--1--1--------0--------|-------------------------------------|
B|-3--------------0--1-----------1-----|-5-----------------------------------|
G|-1--1-----0--------0-----0--0-----3--|-3--3-----r--0--0--0-----------------|
D|-3-----3-----0--------3--------2-----|-5-----5--r--7--7--7--8--7--7--------|
A|-2========2========3========3========|-4========4========5-----------8--5--|
D|-------------------------------------|-------------------7========0========|
   4  1  3  2  4  1  1  4  0  3  1  3    4  1  3  2  3  3  3  4  3  3 
4  1   
   1                 1           2       1                 1
   3                 3                   3                 2 
   2                                     2
 
15 |  .  .  |  .  .  |  .  .  |  .  .    |  .  .  |  .  .  |  .  .  | 
.  .  
e|-------------------------------------|-------------------------------------|
B|-------0--1--------3-----3--3--------|-3--------1--------0--------0--------|
G|-4--------1-----1--1--------1-----1--|-1-----1--1-----1--1-----1--1-----1--|
D|-6--3-----3--3-----3--3--------3-----|----3-----3--3-----3--3-----3--3-----|
A|-5========3========2========2========|-2========3========4========4========|
D|-------------------------------------|-------------------------------------|
   2  1  0  1  4  1 4   3  4  4  3  1    4  3  1  1  3  1  1  3  1  1 
3  1
   4        1       1         1          1        1        3        3
   3        4       3         2          2        4        4        4
            3       2                             3
                                         CI
17 |  .  .  |  .  .  |  .  .  |  .  .    |  .  .  |  .  .  |  .  .  | 
.  .  
e|----------------------------------1--|-1========1--------------------------|
B|-0--------1--------3--------1--------|-3========---3--0--1========---------|
G|-------0--------0--0-----0-----2-----|-3========1--------2========---3--0--|
D|----3---------2-------2-----3--------|----------0========3========---------|
A|-5========3========1========0========|-1========---------3========3========|
D|-------------------------------------|-------------------------------------|
   3  1  0  1   2 0  3  2  0  1  2  1    1        2  3  0  1        3 
4  0
            3        0        3          3        1        2
                     1                   3                 4
                                         1                 3
   CIII                                  cI                CV.......|
19 |  .  .  |  .  .  |  .  .  |  .  .    |  .  .  |  .  .  |  .  .  | 
.  .  
e|-------------------------------------|-1--------1-----------8--5-----------|
B|-6========4========3========4========|-3--------3--3--0-----------1--------|
G|-5========5========3========5========|-3-----------1-----5-----------3--0--|
D|-3========3========0========3========|----------0========7--------2--------|
A|----------0========1========3========|-1========---------8========3========|
D|-3========---------------------------|-------------------------------------|
   4        2        4        2          1        1  3  0  1  4  1  1 
4  0
   3        3        3        3          3        3  1     2        2

   1        1        1        1          3                 3        3
   1                          1          1
                              cII......|
21 |  .  .  |  .  .  |  .  .  |  .  .    |  .  .  |  .  .  |  .  .  | 
.  .  
e|-r--0h-1--------------------r--5-----|-------------1-----------------------|
B|----------r--2h-3--r--3p-2--2=====2--|----------------3--3--------2--------|
G|-2========2========0========---------|-2--------2--2--3--0--------0--3p-2--|
D|-3========0========---------2========|-3-----0--------------0--------------|
A|----------------------------0========|----4--------------------4--0========|
D|-3========3========2========---------|-0========3========2========---------|
   2  0  1  1  1  3  2 4  3   1  4  1    1  3  0  2  1  4  4  0  3  2 
3  2   
   4        2                            2        3  2  3  1
   3     
  

23 |  .  .  |  .  .  |  .  .  |  .  .    |  .  .  |  .  .  |  .  .  | 
.  .  
e|-------------1-----------------------|-------------------------------------|
B|----------------3--3--------2--------|-r--2--3-----------3--------1--------|
G|-2--------2--2--3--0--------0--3p-2--|----------r--3--2--3--------2--------|
D|-3-----0--------------0--------------|-0========------------------4--0-----|
A|----4--------------------4--0========|-0========3========---4--5--------3--|
D|-0========3========2========---------|-0========0========5========Rr-------|
   1  3  0  2  1  4  4  0  3  2  3  2    0  1  2  2  3  2  1  2  4  1 
0  3
   2        3  2  3  1                                     1        2
                                                           3        4

                     cIII                                  cII 			    
 
25 |  .  .  |  .  .  |  .  .  |  .  .    |  .  .  |  .  .  |  .  .  | 
.  .  
e|-6========5========3========1========|-0========---------------------------|
B|-4========4========5========3========|----------0========2--2-----3--------|
G|-------------------3========2========|-3========7========2-----2--2--2-----|
D|-5========5========---------0========|-5========---------2--------3-----3--|
A|-6========3========4========---------|----------8========0========0========|
D|-------------------------------------|-5========6========------------------|
   4        4        1        1          1        2        1  1  1  3 
1  2 
   1        2        3        3          3        3        1        1
   2        3        1        2          2        1        1        2
   3        1        2

27 |  .  .  |  .  .  |  .  .  |  .  .    |  .  .  |  .  .  |  .  .  | 
.  .  
e|-0--------1--------0--------0--------|----------------------6--5--5--10-8--|
B|-2-----2--3--------3--------2--2-----|-3--2--3-----8--7--7--------7--------|
G|-2--2--------2-----2-----2--------2--|-2--------5--------5-----------------|
D|----------------3-----2--------------|----------7--------------------------|
A|-0========0========0========0========|-------------------------------------|
D|-------------------------------------|-0========0========0========0========|
   2  1  2  1  2  3  3  1  2  2  2  1    3  2  3  1  4  3  3  2  1  1 
4  3
   1        4        2                   2        3        1        2

29 |  .  .  |  .  .  |  .  .  |  .  .    |  .  .  |  .  .  |  .  .  | 
.  .  
e|-10----------------------------------|-------------------------------------||
B|-11-11-------------------------------|-------------------------------------||
G|-12----12----12----------------------|-7===================================||
D|----------12----12----12-------------|-7===================================||
A|-------------------13----13-10-13-10-|-9===================================||
D|-------------------------------------|-0===================================||
   1  2  3  3  4  3  3  2  3  1  3  1    1                            
   Fine
   2                                     1
   3                                     3
                                         0


*******************************************************************************
*******************************************************************************

#---------------------------------PLEASE
NOTE---------------------------------#
#This file is the author's own work and represents their
interpretation of the#
#song. You may only use this file for private study, scholarship, or
research.#
#-----------------------------------------------------------------------------#

Lacrymosa - W A Mozart (1719-1787)

I first heard this for guitar by Gerry Gianutsos, and it blew me away.
I've
always liked this peice. This is for two guitars. I did this mostly by
ear 
and looking at the music for 1st and 2nd violins. If anyone has any 
suggestions on parts of this let me know. . Some of 
the chords are a stretch, but if you've been playing for a while they

shouldn't be too much of a problem. Timing between the two guitars is
very 
important, use a metronome for accuracy. If fingering is needed, let
me know 
and I'll repost it.

              LACRYMOSA FROM MOZARTS REQUIEM MASS IN DM
                       As written by Mozart

Arranged by Jason Glisson
Transcribed by Jason Glisson

  M.M. = 65
|-------------------------|---------------------------|
|-------------------2-----|-3-------------------------|
|-------2-----0-----0-----|-2------------------0------|
|-3-----3-----2-----2-----|-3------2-----0------------|
|-5-----------------------|--------4-----0-----0------|
|-------------------------|---------------------------|
|
|---------5-6---------8-6-|---5-10---6-3---------5----|
|-------------------------|----------------5-6-----5--|
|---6-7---------7-6-------|---------------------------|
|-------------------------|---------------------------|
|-------------------------|---------------------------|
|-------------------------|---------------------------|


|---------1---------------|---------1----------------|
|-3---3-----3-3-----2-----|-3---3-----3-3-----2------|
|-2-2---------2---2-0---0-|-2-2---------2---2-0---0--|
|-3-----3-----0-0---2-2---|-3-----3-----0-0---2-2----|
|-------------------------|--------------------------|
|-------------------------|--------------------------|
|
|---------5-6---------6-5-|---------5-6---------6-5--|
|-------------------------|--------------------------|
|---6-7---------7-6-------|---6-7---------7-6--------|
|-------------------------|--------------------------|
|-------------------------|--------------------------|
|-------------------------|--------------------------|


|-------------------------|--------------------------|
|-------------------------|-------------------0---3--|
|-------------------0---0-|-2---2-------2---2-0-0----|
|-0---0-2---2-0---0-2-2---|-3-3-------0-2-2---0------|
|-0-0---4-4---0-0---3-----|-3-------2---0------------|
|-1-----5-----5-----------|-------4------------------|
|
|-------------------------|--------------------------|
|-------------------------|---------------1-----3----|
|-------------------------|---2-----4-------2-----0--|
|---0-----2-----3-----5---|-----3-----2--------------|
|-----0-----0-----5-----3-|--------------------------|
|-------------------------|--------------------------|


|-------------------------|--------------------------|
|-------------------------|-0-----3---3-3---3-2---2--|
|-0---0-0---0-2---2-2---2-|-0---0---2-----2-----0----|
|---2-----2---3-3---1-1---|-0-0---3-----3-----2------|
|-3-----3-----3-----3-----|--------------------------|
|-------------------------|--------------------------|
|
|---------------------2---|---3-----5-----5----------|
|---5-----5-----6---------|--------------------------|
|-----5-----5-----5-----2-|-----4-----3-----2---2----|
|-------------------------|--------------------------|
|-------------------------|-----------------------0--|
|-------------------------|--------------------------|


|---------------------1---|---------------------------|
|-----------------------3-|-2---2---3--5---5-3---3----|
|-2---2---3-2-2---2-------|-0-0--------3-3---3-3------|
|-2-2---------3-3---------|-2-----2----3-----3-----3--|
|-0-----0-----0-----0-----|---------------------------|
|-------------------------|---------------------------|
|
|---------------------1---|---------------------------|
|-----------------------3-|---------3\-5-----------3--|
|---------3-2-------------|---0------------2----------|
|---2-----------0---------|----------------------3----|
|-----0-----------0-------|-----1------------0--------|
|-------------------------|---------------------------|


|---------3---------------|---------1----------------|
|-4---4-----4-4---4-3---3-|-3---3-----3-5---5-3------|
|-3-3---------3-3---3-3---|-2-2---------3-3---2-2-1--|
|-1-----1-----1-----3-----|-3-----3-----3-----3------|
|-------------------------|--------------------------|
|-------------------------|--------------------------|
|
|---------3---------------|-----------------------4--|
|---4-------4---4-----3---|---3-----6-5---5-----3----|
|-----------------------3-|--------------------------|
|-----1-----------3-------|-----0-----------3--------|
|-------------------------|--------------------------|
|-------------------------|--------------------------|


|---------3-1-------------|----------------------------|
|-3---3-------6---6-5---5-|-5---5----------------------|
|-3-3---------5-5---3-3---|-3-3-----2-0-0---0----------|
|-3-----3-----5-----3-----|-2-----2-----2-2---3--------|
|-------------------------|-------------------5--------|
|-------------------------|----------------------------|
|
|---------3-1---1-------6-|---6-----5-3---3--------10--|
|-----3---------------5---|----------------------------|
|-----------------0-------|-----3-----------2---10-----|
|---0---------------------|----------------------------|
|-------------------------|----------------------------|
|-------------------------|----------------------------|


|--------------------------------|---------------------------------|
|----------------3-------3-------|-3-------------------------------|
|-4-------5----------------------|---------5------4-------4--------|
|-3-------3------3-------3-------|-3-------3------3-------3--------|
|-0-------0------0-------0-------|-0-------0------0-------0--------|
|--------------------------------|---------------------------------|
|
|--------------8------10------10-|------10------8------------------|
|------12------------------------|---------------------12------12--|
|---10------10-----10------10----|---10------10-----10------10-----|
|--------------------------------|---------------------------------|
|--------------------------------|---------------------------------|
|--------------------------------|---------------------------------|


|-------------------------|--------------------------|
|-0---0---------3-------6-|-6---6---3----------------|
|-0-0---5---5-----5-5---5-|-5-5-----4-4-5---5---3-0--|
|-3-----3-3---------3---3-|-3-----3-3---3-3----------|
|-------0-----0-------0---|-------------0-----0------|
|-------------------------|--------------------------|
|
|-----------------------1-|-1---1--------------------|
|-----0-----1-----3---1---|---3-----3-0-1---1-1------|
|---0-----0-----5---------|---------------------3-0--|
|-------------------------|--------------------------|
|-------------------------|--------------------------|
|-------------------------|--------------------------|


|------------------------|--------------------------|
|-------4----3-----------|-3---3---3----------------|
|-2-----2----3-----2-----|-3-3-----4-4-5---5---3-0--|
|-3-----3----3-----3-----|-3-----3-3---3-3----------|
|-0----------------0-----|-------------0-----0------|
|------------------------|--------------------------|
|
|-----1---1--------------|--------------------------|
|--------------------4-6-|-6-------3-0-1-----1------|
|----------------2-5-----|---------------------3-0--|
|-3-3---3------3---------|--------------------------|
|------------------------|--------------------------|
|------------------------|--------------------------|


|-------------------------|----------1----------------|
|-------2---2-2---2-2---2-|-3---3------3-3-----2---2--|
|-2---2-2-2---0-0---0-0---|-2-2----------2---2-0-0----|
|-3-3---3-----2-----2-----|-3------3-----0-0---2------|
|-0-----------------------|---------------------------|
|-------------------------|---------------------------|
|
|-----5-----3-----5-----9-|-----10---5-6---------6-5--|
|---------------6-----6---|---6-----------------------|
|-------------------------|----------------7-6--------|
|-3-3-----3---------------|---------------------------|
|-------------------------|---------------------------|
|-------------------------|---------------------------|


|---------1---------------|---------------------------|
|-3---3-----3-3-----2---2-|-3-------------------------|
|-2-2---------2---2-0-0---|-2-2---5-----3-----2-------|
|-3-----3-----0-0---2-----|-3---3-3-3---5-5---3-3-----|
|-------------------------|-------0---0-5---5-3----3--|
|-------------------------|---------------------------|
|
|---------5-6---------6-5-|---------5-6---------10-8--|
|-------------------------|---2-3---------3-2---------|
|---6-7---------7-6-------|---------------------------|
|-------------------------|---------------------------|
|-------------------------|---------------------------|
|-------------------------|---------------------------|


|--------------------------|-------------------------|
|--------------------------|-------------------------|
|-0-----------0-----2-2----|--------------2---2-2----|
|-2-2---3-----2-2---0----0-|-2-----0------2-2---3-3--|
|-2---2-3-3---0---0--------|-1-1---0-0----0-----0----|
|-------5---5-------2------|-0---0-0----0------------|
|
|---------6-5---------10-8-|---------10--------------|
|---3-4---------6-5--------|---5-3------6---2-5---6--|
|--------------------------|-------------------------|
|--------------------------|-------------------------|
|--------------------------|-------------------------|
|--------------------------|-------------------------|


|------------------------------|---------------------------|
|------------------------------|-------3-----3-----3-------|
|----2---2-2-------2---2-2---2-|-2-----2-----2-----2-------|
|----2-2---3-3-----3-3---2-2---|-0-----0-----0-----0-------|
|-0--0-----0----0--0-----0-----|-0-----0-----0-----0-------|
|------------------------------|---------------------------|
|
|-10-----5---10------5-----9---|---------3-2---6-5---10-8--|
|------5--------10-----5-------|---2-3---------------------|
|----------------------------9-|---------------------------|
|------------------------------|---------------------------|
|------------------------------|---------------------------|
|------------------------------|---------------------------|


|--------------------------|-2----*|--|
|-3-3----------------------|-3----*|--|
|-2----2-3-3---2---2-2-2---|-2----*|--|
|-0------3---3-3-3---2---2-|-0----*|--|
|-0------0-----0-----0-----|-0----*|--|
|--------------------------|------*|--|
|
|---10-5---6-3---3-0-------|------*|--|
|----------------------6-2-|------*|--|
|--------------------------|-7----*|--|
|--------------------------|-7----*|--|
|--------------------------|-5----*|--|
|--------------------------|-5----*|--|


--------------------------------------------------------------------------

Legend
------

h  = hammer-on           |  = bar
p  = pull-off           ||  = double bar
b  = bend               ||* = repeat start
r  = bend release       *|| = repeat end
/  = slide up/down      *|  = double bar (end)
[5] = nat. harmonic      !  = repeat beat (,8th)
 = art. harmonic     !!  = repeat beat (16th)
~  = vibrato             %
Midi Mime Types SiteMap Contact Subscribe © 2014 JimmyLandStudios