subject: Fernando Sor , 0p11 minuet n.1 in G
 transcribed by Tarek Yazbek (October 2003)

 this is my first transcription for classical guitar hope u enjoy it 
 any way this piece is played in the key of G and has strange tuning 
 in which the 5th string is tuned to G  and the 6th  string is tuned 
 to D so the tuning will be  (D,G,D,G,B,e)  so have fun  and for any 
 questions or  corrections  email me at yazbek999@hotmail.com  enjoy 

                           Fernando Sor
                      0p.11 n.1, minuet in G

 tuning (D,G,D,G,B,e) 6=D,5=G

 andante
 

 e|--3-----3-----3-----|-5-----------5--3---|--7-----8-----7-----|
 B|--3-----3-----3-----|-3--------------3---|--7-----10----7-----|
 G|--4-----4-----4-----|-5--------------4---|-----7-----7-----7--|
 D|-----5-----5--------|----4-----4-------5-|--0-----0-----0-----|
 G|--0-----0-----0---5-|-0-----0--------0---|--------------------|
 D|--------------------|--------------------|--------------------|

 
 e|--7p5--4--5--7--5---|--8-----7-----5-----|--4--------------8--|
 B|--7----6--7--8--7---|-----8-----7-----5--|--0--3--6--5--3-----|
 G|--7-----------------|-----9-----7-----5--|-----------------5--|
 D|--0-----------------|--------------------|-----------------7--|
 G|--------------------|--------------------|--------------------|
 D|--------------------|--------------------|--------------------|

 e|-8--7--8--5--3--2-3-|-----2------3------||--7--10----9--10--7-|
 B|-5--4--5-----3--1-0-|-----1------0------||--8--12----11-12--8-|
 G|----------5--4--2-0-|-----2------0-----*||*----0-----0------0-|
 D|-------------0------|------------------*||*-------------------|
 G|--------------------|-----0-------------||--0-----0-----0-----|
 D|----------------0---|-------------------||--------------------|
 

 e|-8--10P8--7--8--10P8--7---8--|-7--10--0--9--10--7-|-5--7P5-4--5--7P5--4-5---|
 B|10--10----8-10--10----8--10--|-8--12----11--12--8-|-7--7---5--7--7----5-7---|
 G|-----------------------------|-----0-----0------0-|-----------------------0-|
 D|----0------------0----------0|--------------------|----0--------------------|
 G|-----------------------------|-0------0------0----|-------------------------|
 D|-0-----------0------------0--|--------------------|-0---------0---------0---|

 e|--9---9---9---9---9-|---10-----7-----7---|---5----------------|
 B|--8---8---8---8---8-|----7-----6---------|---7-----7-----4----|
 G|--9---9---9---9---9-|----7-----7---------|---7-----7-----6----|
 D|--7---7-------8-----|----9-----6---------|---7-----7-----7----|
 G|--------------------|--------------------|--------------------|
 D|--------------------|--------------------|---------------7----|

 e|-------2--0--3--2--5|--3-----3-----3-----|-5-----------7--3---|
 B|-3-----3--2-----1---|--3-----3-----3-----|-3--------------3---|
 G|-2------------------|--4-----4-----4-----|-5--------------4---|
 D|--------------------|-----5-----5-----5--|----4-----4--------5|
 G|--------------------|--0-----0-----0-----|-0-----0--------0---|
 D|-0--0---------------|--------------------|--------------------|

 e|-7---10--8---10-7--10|--7P5--4--5--7--5--|---9-12-9---7-10-7---5-8-5-|
 B|-8------10------8----|--7----6--7--8--7--|-8--------7--------5-------|
 G|---7-------7------7--|-------------------|-9--------7--------5-------|
 D|-0-------0------0----|--0----------------|---------------------------|
 G|---------------------|-------------------|---------------------------|
 D|---------------------|-------------------|---------------------------|

 e|--4-----------5--7--|--8--7--8--5--3--2--|------2-----3------||
 B|--3--6--5--3--5-----|--5--4--5-----3--2--|------2-----0------||
 G|--4-----------------|-----------5--4--2--|------2-----0-----*||
 D|--------------7-----|--------------0-----|------------------*||
 G|--------------------|--------------------|------0------------||
 D|--------------------|-----------------0--|-------------------||
 
Midi Mime Types SiteMap Contact Subscribe © 2014 JimmyLandStudios